Группа Rammstein - главная
Rammstein  навигация
Rammstein
     Новости
     О группе
     Дискография, mp3
     Чтиво
     Концерты
     Скачать клипы
     Фотографии
     Wallpapers

     Магазин
     Рассылка
     Разное
     Фанатам
     Ссылки
 
Rammstein - реклама
Rammstein
QLE.RU/100x100

Alter Mann

Verse
E---|-------------------------------------------------------------------
B---|-------------------------------------------------------------------
G---|-------------------------------------------------------------------
D---|-------------------------------------------------------------------
A---|-----2--------2-----2--------2--------2-----2--------2--------0----
D---|--2--2--2--2--2--2--2--2--2--2--2--2--2--2--2--2--2--2--2--2--0----

Chorus Riff
E---------|-------------------------------------------------------------
B---------|-------------------------------------------------------------
G---------|-------------------------------------------------------------
D---------|-----5--------5-----5--------5--------5-----5-----------4----
A---1--3--|--3--3--3--3--3--3--3--3--3--3--3--3--3--3--3--3--3--2--2----
D---1--3--|-------------------------------------------------------------


E-----------------------------------------------------------------------
B-----------------------------------------------------------------------
G-----------------------------------------------------------------------
D---------4-----4--------4--------4-----4-----------5--------5-----5----
A---2--2--2--2--2--2--2--2--2--2--2--2--2--2--2--3--3--3--3--3--3--3----
D-----------------------------------------------------------------------


E-----------------------------------------------------------------------
B-----------------------------------------------------------------------
G-----------------------------------------------------------------------
D------------9--------9-----9--------4--------4-----4--------4----------
A---3--3--7--7--7--7--7--7--7--7--2--2--2--2--2--2--2--2--2--2--2--2----
D-----------------------------------------------------------------------

End Riff
E------------------|--------------------|-------------------------------
B------------------|--------------------|-------------------------------
G------------------|--------------------|-------------------------------
D---4-----4--------|--0-----------------|-------------------------------
A---2--2--2--2--2--|--0--------------2--|-------------------------------
D------------------|--0--7--8--7--5--2--|-------------------------------

This song has only 3 riffs. It should be pretty straight forward.


== TABLATURE EXPLANATION ==


---------- ---------- ----t---
----5h8--- Hammeron ----(8)--- Ghost ----6--- Tap
---------- ---------- Note --------
----5p8--- Pulloff ---------- --------

---------- ---------- -----p--
----5/8--- Slide Up -----x---- Dead -----7-- Pop
---------- ---------- Note --s-----
----5\8--- Slide Down ---------- --5----- Slap

---------- ||------|| Repeat --------
----5~~~-- Vibrato ||*----*|| ---5^--- Bend
---------- ||*----*|| --------
---------- ||------|| --------

---------- ---------- --------
-4:------- Time ---------- --------
-4:------- Signature ---------- --------
---------- ---------- --------

Rhythm:
w = whole note W = dotted whole
h = half note H = dotted half
q = quarter note Q = dotted quarter
e = eighth note E = dotted eighth
s = sixteenth note S = dotted sixteenth
t = 32nd note T = dotted 32nd
x = 64th note X = dotted 64th
^ = triplet

Jist (Jist2003@pisem.net)

 

Заказать музыку Rammstein на аудио-дисках и mp3 вы можете в нашем Магазине

 
Rammstein - информация
Rammstein
 
    Сайт группы Rammstein 2003-2013
Рейтинг@Mail.ru