Группа Rammstein - главная
Rammstein  навигация
Rammstein
     Новости
     О группе
     Дискография, mp3
     Чтиво
     Концерты
     Скачать клипы
     Фотографии
     Wallpapers

     Магазин
     Рассылка
     Разное
     Фанатам
     Ссылки
 
Rammstein - реклама
Rammstein
QLE.RU/100x100

Bestrafe Mich

Intro Chorus/Intro
E---|----------------------|--------------------------|-----------------
B---|--13^--13^--13^--13^--|--------------------------|-----------------
G---|----------------------|--4--4--5--9--x--x--5--4--|-----------------
D---|----------------------|--4--4--5--9--x--x--5--4--|-----------------
A---|----------------------|--2--2--3--7--x--x--3--2--|-----------------
D---|----------------------|--------------------------|-----------------

Main Riff
E-----------------------------------------------------------------------
B-----------------------------------------------------------------------
G-----------------------------------------------------------------------
D------------2--2--------------2--2--------------2--2-------------------
A---2--2--2--2--2-----2--2--2--2--2-----2--2--2--2--2--2--/-------------
D---2--2--2--2--2-----2--2--2--2--2-----2--2--2--2--2--2--/-------------

Verse Riff 1
E------------|-----------------------|----------------------------------
B------------|-----------------------|----------------------------------
G------------|-----------------------|----------------------------------
D------------|-----------------------|----------------------------------
A---2--2--2--|--2--2--2--2--2--2--2--|--2-----2-----2-----2-----2-------
D---2--2--2--|--2--2--2--2--2--2--2--|--2-----2-----2-----2-----2-------


E------|----------------------------------------------------------------
B------|----------------------------------------------------------------
G------|----------------------------------------------------------------
D------|----------------------------------------------------------------
A---2--|----------------------------------------------------------------
D---2--|----------------------------------------------------------------

In addition to these riffs
there is about 2 more which aren't here. They are just mutated
riffs of the main riff. The intro is played during one of the
verses. PLay riff 1 after the main riff. But in the intro only

== TABLATURE EXPLANATION ==


---------- ---------- ----t---
----5h8--- Hammeron ----(8)--- Ghost ----6--- Tap
---------- ---------- Note --------
----5p8--- Pulloff ---------- --------

---------- ---------- -----p--
----5/8--- Slide Up -----x---- Dead -----7-- Pop
---------- ---------- Note --s-----
----5\8--- Slide Down ---------- --5----- Slap

---------- ||------|| Repeat --------
----5~~~-- Vibrato ||*----*|| ---5^--- Bend
---------- ||*----*|| --------
---------- ||------|| --------

---------- ---------- --------
-4:------- Time ---------- --------
-4:------- Signature ---------- --------
---------- ---------- --------

Rhythm:
w = whole note W = dotted whole
h = half note H = dotted half
q = quarter note Q = dotted quarter
e = eighth note E = dotted eighth
s = sixteenth note S = dotted sixteenth
t = 32nd note T = dotted 32nd
x = 64th note X

 

Заказать музыку Rammstein на аудио-дисках и mp3 вы можете в нашем Магазине

 
Rammstein - информация
Rammstein
 
Источник: ЦСКА уступил "Мордовии".
    Сайт группы Rammstein 2003-2013
Рейтинг@Mail.ru