Группа Rammstein - главная
Rammstein  навигация
Rammstein
     Новости
     О группе
     Дискография, mp3
     Чтиво
     Концерты
     Скачать клипы
     Фотографии
     Wallpapers

     Магазин
     Рассылка
     Разное
     Фанатам
     Ссылки
 
Rammstein - реклама
Rammstein
QLE.RU/100x100

Buck Dich

Main Riff
E---|-------------------------------------------------------------------
B---|-------------------------------------------------------------------
G---|-------------------------------------------------------------------
D---|--0-----3-----2-----3--5--------------0--------3-----2-----3--5----
A---|--0-----3-----2-----3--5-----0--2--3--0--------3-----2-----3--5----
D---|--0--0--3--0--2--0--3--5--0--0--2--3--0--0--0--3--0--2--0--3--5----

Etc.
E------------------------|----------------------------------------------
B------------------------|----------------------------------------------
G------------------------|----------------------------------------------
D---------------0--------|----------------------------------------------
A------0--2--3--0--------|----------------------------------------------
D---0--0--2--3--0--0--0--|----------------------------------------------

Riff 2
E---------------|--------------------------------------------------|----
B---------------|--------------------------------------------------|----
G---------------|--------------------------------------------------|----
D---------------|--------------------------------------------------|----
A---------------|-----1-----1-----1-----1-----1-----1-----1-----1--|----
D---------------|--1--1--1--1--1--1--1--1--1--1--1--1--1--1--1--1--|----

These are the only two riffs in this song. At the begining there
are pick scrapes on the low E string.


== TABLATURE EXPLANATION ==


---------- ---------- ----t---
----5h8--- Hammeron ----(8)--- Ghost ----6--- Tap
---------- ---------- Note --------
----5p8--- Pulloff ---------- --------

---------- ---------- -----p--
----5/8--- Slide Up -----x---- Dead -----7-- Pop
---------- ---------- Note --s-----
----5\8--- Slide Down ---------- --5----- Slap

---------- ||------|| Repeat --------
----5~~~-- Vibrato ||*----*|| ---5^--- Bend
---------- ||*----*|| --------
---------- ||------|| --------

---------- ---------- --------
-4:------- Time ---------- --------
-4:------- Signature ---------- --------
---------- ---------- --------

Rhythm:
w = whole note W = dotted whole
h = half note H = dotted half
q = quarter note Q = dotted quarter
e = eighth note E = dotted eighth
s = sixteenth note S = dotted sixteenth
t = 32nd note T = dotted 32nd
x = 64th note X = dotted 64th
^ = triplet

 

Заказать музыку Rammstein на аудио-дисках и mp3 вы можете в нашем Магазине

 
Rammstein - информация
Rammstein
 
Студенты знают что такое микронаушник. Если не знаете, читайте на microyxo.info
    Сайт группы Rammstein 2003-2013
Рейтинг@Mail.ru