Группа Rammstein - главная
Rammstein  навигация
Rammstein
     Новости
     О группе
     Дискография, mp3
     Чтиво
     Концерты
     Скачать клипы
     Фотографии
     Wallpapers

     Магазин
     Рассылка
     Разное
     Фанатам
     Ссылки
 
Rammstein - реклама
Rammstein
QLE.RU/100x100

Der Meister

Riff 1
E---|--------------------------------------------|----------------------
B---|--------------------------------------------|----------------------
G---|--------------7h8-----------7h8--------7h8--|--------------7h8-----
D---|--0--0--0--0--7-8--0--0--0--7-8--0--0--7-8--|--0--0--0--0--7-8-----
A---|--------------------------------------------|----------------------
E---|--------------------------------------------|----------------------

Riff 2
E----------------------------|------------------------------------------
B----------------------------|------------------------------------------
G------------7h8--------5h7--|--7-----5-----7-----5-----7-----5---------
D---0--0--0--7-8--0--0--5-7--|--7-----5-----7-----5-----7-----5---------
A----------------------------|--5-----3-----5-----3-----5-----3---------
E----------------------------|-----0-----0-----0-----0-----0-----0------

Riff 3
E---------------|-------------------------------------------------------
B---------------|-------------------------------------------------------
G---7-----5--8--|--9-----7-----9-----7-----9-----7-----9-----7--10------
D---7-----5--8--|--9-----7-----9-----7-----9-----7-----9-----7--10------
A---5-----3--6--|--7-----5-----7-----5-----7-----5-----7-----5--8-------
E------0--------|-----0-----0-----0-----0-----0-----0-----0-------------

Riff 4
E---|--|--------------------------------------------|-------------------
B---|--|--------------------------------------------|-------------------
G---|--|--------------7h8-----------7h8--------7h8--|--------------7----
D---|--|--0--0--0--0--7-8--0--0--0--7-8--0--0--7-8--|--0--0--0--0--7----
A---|--|--------------------------------------------|-------------------
E---|--|--------------------------------------------|-------------------


E---------------------|-------------------------------------------------
B---------------------|-------------------------------------------------
G---h8-----------7h8--|-------------------------------------------------
D----8--0--0--0--7-8--|-------------------------------------------------
A---------------------|-------------------------------------------------
E---------------------|-------------------------------------------------

Song Progression:
(Riff 1 and Riff 4 is actually played by 2 guitars. One playing PM
open D strings
and the other playing the double stop hammerons)
PM all open strings
Intro: Riff 1 x7
Riff 2 x3
Verse 1: Riff 4 x3 (played in between singing)
Chorus: Riff 4 x8
Riff 3
Verse 2: see verse 1
Chorus: Riff 4 x8
Riff 2 x3
Riff 3 x4
Keyboard interlude
Chorus: Riff 4 x11
Riff 2


== TABLATURE EXPLANATION ==


---------- ---------- ----t---
----5h8--- Hammeron ----(8)--- Ghost ----6--- Tap
---------- ---------- Note --------
----5p8--- Pulloff ---------- --------

---------- ---------- -----p--
----5/8--- Slide Up -----x---- Dead -----7-- Pop
---------- ---------- Note --s-----
----5\8--- Slide Down ---------- --5----- Slap

---------- ||------|| Repeat --------
----5~~~-- Vibrato ||*----*|| ---5^--- Bend
---------- ||*----*|| --------
---------- ||------|| --------

---------- ---------- --------
-4:------- Time ---------- --------
-4:------- Signature ---------- --------
---------- ---------- --------

Rhythm:
w = whole note W = dotted whole
h = half note H = dotted half
q = quarter note Q = dotted quarter
e = eighth note E = dotted eighth
s = sixteenth note S = dotted sixteenth
t = 32nd note T = dotted 32nd
x = 64th note X = dotted 64th
^ = triplet


 

 

Заказать музыку Rammstein на аудио-дисках и mp3 вы можете в нашем Магазине

 
Rammstein - информация
Rammstein
 
    Сайт группы Rammstein 2003-2013
Рейтинг@Mail.ru