Группа Rammstein - главная
Rammstein  навигация
Rammstein
     Новости
     О группе
     Дискография, mp3
     Чтиво
     Концерты
     Скачать клипы
     Фотографии
     Wallpapers

     Магазин
     Рассылка
     Разное
     Фанатам
     Ссылки
 
Rammstein - реклама
Rammstein
QLE.RU/100x100

Eifersucht

Intro Riff 1
E---|--------------------------|--------------------------|-------------
B---|--------------------------|--------------------------|-------------
G---|--------------------------|--------------------------|-------------
D---|--2--2--2--2--2--2--4--5--|--2--2--2--2--2--2--0-----|-------------
A---|--------------------------|-----------------------2--|--------2----
D---|--------------------------|--------------------------|--------2----

Riff 2
E------------------------------|--------------------------------|-------
B------------------------------|--------------------------------|-------
G------------------------------|--------------------------------|-------
D------------------------------|--------------------------------|-------
A---2--2--2--2--2--2--2--4--5--|--0--0--0--0--0--0--0--0--2--3--|-------
D---2--2--2--2--2--2--2--4--5--|--0--0--0--0--0--0--0--0--2--3--|-------

Riff 3
E---------------------------------|-------------------------------------
B---------------------------------|-------------------------------------
G---------------------------------|-------------------------------------
D---------------------------------|-------------------------------------
A---3--3--3--3--3--3--3--3--3--5--|-------------------------------------
D---3--3--3--3--3--3--3--3--3--5--|-------------------------------------


All of these riffs are picked in the same rhythm. They are usually
played one right after the other. Although you will need to listen
to the song to get it right.


== TABLATURE EXPLANATION ==


---------- ---------- ----t---
----5h8--- Hammeron ----(8)--- Ghost ----6--- Tap
---------- ---------- Note --------
----5p8--- Pulloff ---------- --------

---------- ---------- -----p--
----5/8--- Slide Up -----x---- Dead -----7-- Pop
---------- ---------- Note --s-----
----5\8--- Slide Down ---------- --5----- Slap

---------- ||------|| Repeat --------
----5~~~-- Vibrato ||*----*|| ---5^--- Bend
---------- ||*----*|| --------
---------- ||------|| --------

---------- ---------- --------
-4:------- Time ---------- --------
-4:------- Signature ---------- --------
---------- ---------- --------

Rhythm:
w = whole note W = dotted whole
h = half note H = dotted half
q = quarter note Q = dotted quarter
e = eighth note E = dotted eighth
s = sixteenth note S = dotted sixteenth
t = 32nd note T = dotted 32nd
x = 64th note X = dotted 64th
^ = triplet

 

Заказать музыку Rammstein на аудио-дисках и mp3 вы можете в нашем Магазине

 
Rammstein - информация
Rammstein
 
    Сайт группы Rammstein 2003-2013
Рейтинг@Mail.ru