Группа Rammstein - главная
Rammstein  навигация
Rammstein
     Новости
     О группе
     Дискография, mp3
     Чтиво
     Концерты
     Скачать клипы
     Фотографии
     Wallpapers

     Магазин
     Рассылка
     Разное
     Фанатам
     Ссылки
 
Rammstein - реклама
Rammstein
QLE.RU/100x100

Herzeleid

Riff 1 Riff 2 * * *
E---|-----------------------|-----------------------------------|-------
B---|-----------------------|-----------------------------------|-------
G---|-----------------------|-----------------------------------|-------
D---|-----------------------|--2--4-----4-----5--5--4-----------|-------
A---|--4--4--4--4--4--4--4--|--2--4--2--4--4--5--5--4-----------|-------
E---|--2--3--2--2--3--3--2--|--0--2--0--2--2--3--3--2--2--2--2--|-------
* * *

Riff 3 Riff 4 Riff 5
E---|-------------------|-------------------|---------------------------
B---|-------------------|-------------------|---------------------------
G---|-------------------|-------------------|---------------------------
D---|-------------5--4--|-------------5--4--|---------------------------
A---|-------------5--4--|-------------5--4--|---------------------------
E---|--3h5--5--5--3--2--|--0h2--2--2--3--2--|--0h2--2--2--3p2--0h2------


E-----------------------------------------------------------------------
B-----------------------------------------------------------------------
G-----------------------------------------------------------------------
D-----------------------------------------------------------------------
A-----------------------------------------------------------------------
E---0h2--2--2--2--2--2--2--3p5--5--5--6p5--3h5--3h5--5--5--5--5--5------


E------|----------------------------------------------------------------
B------|----------------------------------------------------------------
G------|----------------------------------------------------------------
D------|----------------------------------------------------------------
A------|----------------------------------------------------------------
E---5--|----------------------------------------------------------------

Song Progression:
Verse 1: Riff 1 x16
Riff 2 x4
Verse 2: Riff 1 x16
Chorus: Riff 2 x8
(Riff 3 x2
Riff 4 x2) x2
Riff 5 x6
Verse 2: Riff 1 x9
Solo
Chorus: Riff 2 x8
Riff 1


== TABLATURE EXPLANATION ==


---------- ---------- ----t---
----5h8--- Hammeron ----(8)--- Ghost ----6--- Tap
---------- ---------- Note --------
----5p8--- Pulloff ---------- --------

---------- ---------- -----p--
----5/8--- Slide Up -----x---- Dead -----7-- Pop
---------- ---------- Note --s-----
----5\8--- Slide Down ---------- --5----- Slap

---------- ||------|| Repeat --------
----5~~~-- Vibrato ||*----*|| ---5^--- Bend
---------- ||*----*|| --------
---------- ||------|| --------

---------- ---------- --------
-4:------- Time ---------- --------
-4:------- Signature ---------- --------
---------- ---------- --------

Rhythm:
w = whole note W = dotted whole
h = half note H = dotted half
q = quarter note Q = dotted quarter
e = eighth note E = dotted eighth
s = sixteenth note S = dotted sixteenth
t = 32nd note T = dotted 32nd
x = 64th note X = dotted 64th
^ = triplet

 

Заказать музыку Rammstein на аудио-дисках и mp3 вы можете в нашем Магазине

 
Rammstein - информация
Rammstein
 
Высказывания гениальных особ на портале http://www.grandpeople.ru/. Изучите с пользой.
    Сайт группы Rammstein 2003-2013
Рейтинг@Mail.ru