Группа Rammstein - главная
Rammstein  навигация
Rammstein
     Новости
     О группе
     Дискография, mp3
     Чтиво
     Концерты
     Скачать клипы
     Фотографии
     Wallpapers

     Магазин
     Рассылка
     Разное
     Фанатам
     Ссылки
 
Rammstein - реклама
Rammstein
QLE.RU/100x100

Klavier


Intro/Verse Riff
E---|---------------------------------|----------------------------|----
B---|--10-----8-----6-----6--8--5-----|--10--10--8--8--6--6--5--5--|----

G---|---------------------------------|----------------------------|----
D---|---------------------------------|----------------------------|----
A---|---------------------------------|----------------------------|----
E---|---------------------------------|----------------------------|----

Chorus
E---------------------------|-----------------------|-------------------
B---8--6--5--------5--6--5--|--8--8--7--7--5--5--5--|-------------------
G---------------------------|-----------------------|--3--7--3--7--3----
D---------------------------|-----------------------|--3--7--3--7--3----
A---------------------------|-----------------------|--1--5--1--5--1----
E---------------------------|-----------------------|-------------------


E------------|----------------------------------------------------------
B------------|----------------------------------------------------------
G---7--8--7--|----------------------------------------------------------
D---7--8--7--|----------------------------------------------------------
A---5--6--5--|----------------------------------------------------------
E------------|----------------------------------------------------------

Intro/Verse riff is plated in between choruses, and at the
beginning. It is played on teo guitars. Each guitar is on a
different stereo track. Sometimes the first bar is played twice
before continuing on with the riff. The chords in the chorus are
sort of tremolo picked. So hit them more than once.


== TABLATURE EXPLANATION ==


---------- ---------- ----t---
----5h8--- Hammeron ----(8)--- Ghost ----6--- Tap
---------- ---------- Note --------
----5p8--- Pulloff ---------- --------

---------- ---------- -----p--
----5/8--- Slide Up -----x---- Dead -----7-- Pop
---------- ---------- Note --s-----
----5\8--- Slide Down ---------- --5----- Slap

---------- ||------|| Repeat --------
----5~~~-- Vibrato ||*----*|| ---5^--- Bend
---------- ||*----*|| --------
---------- ||------|| --------

---------- ---------- --------
-4:------- Time ---------- --------
-4:------- Signature ---------- --------
---------- ---------- --------

Rhythm:
w = whole note W = dotted whole
h = half note H = dotted half
q = quarter note Q = dotted quarter
e = eighth note E = dotted eighth
s = sixteenth note S = dotted sixteenth
t = 32nd note T = dotted 32nd
x = 64th note X = dotted 64th
^ = triplet

 

Заказать музыку Rammstein на аудио-дисках и mp3 вы можете в нашем Магазине

 
Rammstein - информация
Rammstein
 
    Сайт группы Rammstein 2003-2013
Рейтинг@Mail.ru