Группа Rammstein - главная
Rammstein  навигация
Rammstein
     Новости
     О группе
     Дискография, mp3
     Чтиво
     Концерты
     Скачать клипы
     Фотографии
     Wallpapers

     Магазин
     Рассылка
     Разное
     Фанатам
     Ссылки
 
Rammstein - реклама
Rammstein
QLE.RU/100x100

Klavier

Chorus 3x
G---||-------------------------------------------------------||---------
D---||*-----------------------------------------------------*||---------
A---||*-----------------------------5--5--5--5--5--5--5--5--*||--6------
E---||---6--6--6--6--6--6--6--6--6---------------------------||---------

Verse
G------------------------------------------------|----------------------
D------------------------------------------------|----------------------
A---6--6--6--6--6--6--6--5--5--5--5--5--5--5--5--|--0--0--0--0----------
E------------------------------------------------|--------------1--1----


G---------------|-------------------------------------------------------
D---------------|-------------------------------------------------------
A---0--0--------|-------------------------------------------------------
E---------1--1--|-------------------------------------------------------

The chorus follows the guitar. Only play the verse during the
second verse.


== TABLATURE EXPLANATION ==


---------- ---------- ----t---
----5h8--- Hammeron ----(8)--- Ghost ----6--- Tap
---------- ---------- Note --------
----5p8--- Pulloff ---------- --------

---------- ---------- -----p--
----5/8--- Slide Up -----x---- Dead -----7-- Pop
---------- ---------- Note --s-----
----5\8--- Slide Down ---------- --5----- Slap

---------- ||------|| Repeat --------
----5~~~-- Vibrato ||*----*|| ---5^--- Bend
---------- ||*----*|| --------
---------- ||------|| --------

---------- ---------- --------
-4:------- Time ---------- --------
-4:------- Signature ---------- --------
---------- ---------- --------

Rhythm:
w = whole note W = dotted whole
h = half note H = dotted half
q = quarter note Q = dotted quarter
e = eighth note E = dotted eighth
s = sixteenth note S = dotted sixteenth
t = 32nd note T = dotted 32nd
x = 64th note X = dotted 64th
^ = triplet

 

Заказать музыку Rammstein на аудио-дисках и mp3 вы можете в нашем Магазине

 
Rammstein - информация
Rammstein
 
    Сайт группы Rammstein 2003-2013
Рейтинг@Mail.ru