Группа Rammstein - главная
Rammstein  навигация
Rammstein
     Новости
     О группе
     Дискография, mp3
     Чтиво
     Концерты
     Скачать клипы
     Фотографии
     Wallpapers

     Магазин
     Рассылка
     Разное
     Фанатам
     Ссылки
 
Rammstein - реклама
Rammstein
QLE.RU/100x100

Kuss Mich (Fellfosch)

Main Riff Chorus
E---|------------------------|------------------------------------------
B---|------------------------|------------------------------------------
G---|--10--10--x--10--10-----|--------------------------9--9--9--9------
D---|--10--10--x--10--10--0--|--0--0--0--0--0--0--0--0--9--9--9--9------
A---|--8---8---x--8---8---0--|--0--0--0--0--0--0--0--0--7--7--7--7------
D---|---------------------0--|--0--0--0--0--0--0--0--0------------------


E-----------------------------------------------------------------------
B-----------------------------------------------------------------------
G---9--9--9--9--10--10--10--10--10--10--10--10--9--9--9--9--9--9--9-----
D---9--9--9--9--10--10--10--10--10--10--10--10--9--9--9--9--9--9--9-----
A---7--7--7--7--8---8---8---8---8---8---8---8---7--7--7--7--7--7--7-----
D-----------------------------------------------------------------------


E-----------------------------------------------------------------------
B-----------------------------------------------------------------------
G---9--------------------------9--9--9--9--9--9--9--9--10--10--10-------
D---9--0--0--0--0--0--0--0--0--9--9--9--9--9--9--9--9--10--10--10-------
A---7--0--0--0--0--0--0--0--0--7--7--7--7--7--7--7--7--8---8---8--------
D------0--0--0--0--0--0--0--0-------------------------------------------


E-----------------------------------------------|-----------------------
B-----------------------------------------------|-----------------------
G---10--10--10--10--10--9--9--9--9--9--9--9--9--|-----------------------
D---10--10--10--10--10--9--9--9--9--9--9--9--9--|-----------------------
A---8---8---8---8---8---7--7--7--7--7--7--7--7--|-----------------------
D-----------------------------------------------|-----------------------


The main played after every chorus, and at the beginning. The
chorus may be missing a chord but it is a start.


== TABLATURE EXPLANATION ==


---------- ---------- ----t---
----5h8--- Hammeron ----(8)--- Ghost ----6--- Tap
---------- ---------- Note --------
----5p8--- Pulloff ---------- --------

---------- ---------- -----p--
----5/8--- Slide Up -----x---- Dead -----7-- Pop
---------- ---------- Note --s-----
----5\8--- Slide Down ---------- --5----- Slap

---------- ||------|| Repeat --------
----5~~~-- Vibrato ||*----*|| ---5^--- Bend
---------- ||*----*|| --------
---------- ||------|| --------

---------- ---------- --------
-4:------- Time ---------- --------
-4:------- Signature ---------- --------
---------- ---------- --------

Rhythm:
w = whole note W = dotted whole
h = half note H = dotted half
q = quarter note Q = dotted quarter
e = eighth note E = dotted eighth
s = sixteenth note S = dotted sixteenth
t = 32nd note T = dotted 32nd
x = 64th note X = dotted 64th

^ = triplet

 

Заказать музыку Rammstein на аудио-дисках и mp3 вы можете в нашем Магазине

 
Rammstein - информация
Rammstein
 
Доставка бетон раствор бетононасос калуга.
    Сайт группы Rammstein 2003-2013
Рейтинг@Mail.ru