Группа Rammstein - главная
Rammstein  навигация
Rammstein
     Новости
     О группе
     Дискография, mp3
     Чтиво
     Концерты
     Скачать клипы
     Фотографии
     Wallpapers

     Магазин
     Рассылка
     Разное
     Фанатам
     Ссылки
 
Rammstein - реклама
Rammstein
QLE.RU/100x100

Laichzeit

Riff 1 (PM entire Riff) Riff 2
E---|--------------------------------|--||------------------------------
B---|--------------------------------|--||------------------------------
G---|--------------------------------|--||*-----------------------------
D---|--------------------------------|--||*--5--5--5--5--5--8--6--------
A---|--2--2--2--2--2--2--2--2--5--3--|--||---5--5--5--5--5--8--6--------
E---|--0--0--0--0--0--0--0--0--3--1--|--||---3--3--3--3--3--6--4--------

3x * * * * * * Riff 3 (PM entire Riff)
E----||--------------------|--||----------------------------------||----
B----||--------------------|--||----------------------------------||----
G---*||--------------------|--||*--------------------------------*||----
D---*||--------------------|--||*--------------------------------*||----
A----||--5--5--5--5--5--5--|--||---2--2--2--2--2--2--2--2--5--3---||----
E----||--3--3--3--3--3--3--|--||---0--0--0--0--0--0--0--0--3--1---||----

Don't PM this part Riff 4 (PM entire Riff)
E---||-------------------------||--------------------------|------------
B---||-------------------------||--------------------------|------------

G---||*-----------------------*||--------------------0--0--|------------
D---||*--2--2--2--2--2--5--3--*||--------------------0--0--|------------
A---||---2--2--2--2--2--5--3---||--2--2--2--2--2--2--------|------------
E---||---0--0--0--0--0--3--1---||--0--0--0--0--0--0--------|------------

Song Progression:
Synthesizer Intro
Riff 1 x16 (Every 8th time Don't PM the G and F chords)
Verse 1
Riff 1 x8 (See first Riff 1)
Verse 2
Chorus: Riff 1 x16 (see first Riff 1)
Riff 2 x2
Verse 3
Riff 1 x8 (see first riff 1)
Chorus: Riff 1 x16 (see first Riff 1)
Riff 2
Verse 4: Riff 3 x4
Riff 4 x3


== TABLATURE EXPLANATION ==


---------- ---------- ----t---
----5h8--- Hammeron ----(8)--- Ghost ----6--- Tap
---------- ---------- Note --------
----5p8--- Pulloff ---------- --------

---------- ---------- -----p--
----5/8--- Slide Up -----x---- Dead -----7-- Pop
---------- ---------- Note --s-----
----5\8--- Slide Down ---------- --5----- Slap

---------- ||------|| Repeat --------
----5~~~-- Vibrato ||*----*|| ---5^--- Bend
---------- ||*----*|| --------
---------- ||------|| --------

---------- ---------- --------
-4:------- Time ---------- --------
-4:------- Signature ---------- --------
---------- ---------- --------

Rhythm:
w = whole note W = dotted whole
h = half note H = dotted half
q = quarter note Q = dotted quarter
e = eighth note E = dotted eighth
s = sixteenth note S = dotted sixteenth
t = 32nd note T = dotted 32nd
x = 64th note X = dotted 64th
^ = triplet

 

Заказать музыку Rammstein на аудио-дисках и mp3 вы можете в нашем Магазине

 
Rammstein - информация
Rammstein
 
    Сайт группы Rammstein 2003-2013
Рейтинг@Mail.ru