Группа Rammstein - главная
Rammstein  навигация
Rammstein
     Новости
     О группе
     Дискография, mp3
     Чтиво
     Концерты
     Скачать клипы
     Фотографии
     Wallpapers

     Магазин
     Рассылка
     Разное
     Фанатам
     Ссылки
 
Rammstein - реклама
Rammstein
QLE.RU/100x100

Mein Herz Brennt

Tuning: drop D
Riff
E| -----------------------------------------------------------------------------------------{----}|(-------)
B| -----------------------------------------------------------------------------------------{----}|(-------)
G| -----------------------------------------------------------------------------------------{----}|(-------)
D| -10-10-10--10-10-10-10--10-10-10--10-10-10-10--10-10-10--10-10-10-10--10-10-10--10-10-10-{3-4-}|(-3-1-0-)
A| -10-10-10--10-10-10-10--10-10-10--10-10-10-10--10-10-10--10-10-10-10--10-10-10--10-10-10-{3-4-}|(-3-1-0-)
D| -10-10-10--10-10-10-10--10-10-10--10-10-10-10--10-10-10--10-10-10-10--10-10-10--10-10-10-{3-4-}|(-3-1-0-)
Notice:what is in round brackets must be played instead of figure brackets only before solo)
Chorus(overdrive)
E ------|-----|-----|-----|
B ------|-----|-----|-----|
G ------|-----|-----|-----|
D -10---|-3---|-6---|-5---|
A -10---|-3---|-6---|-5---|
D -10---|-3---|-6---|-5---|
Solo
E |---------------------------5-5-5-|-5-8-8-8-8-10-10-10----10-8-6-5----|
B |-5-5-5-5-5/6-6-6-6/8-8-8-8-------|--------------------13-------------|
G |---------------------------------|-----------------------------------|
D |---------------------------------|-----------------------------------|
A |---------------------------------|-----------------------------------|
D |---------------------------------|-----------------------------------|
Play first part three times then the second part once.

Nun liebe Kinder gebt fein acht
Ich bin die Stimme aus dem Kissen
Ich hab euch etwas mitgebracht
Hab es aus meiner Brust gerissen
Mit diesem Herz hab ich die Macht
Die Augenlider zu erpressen
Ich singe bis der Tag erwacht
Ein heller Schein am Firmament
Mein Herz brennt
Sie kommen zu euch in der Nacht
Damonen Geister schwarze Feen
Sie kriechen aus dem Kellerschacht
Und werden unter euer Bettzeug sehen
Nun liebe Kinder gebt fein acht
Ich bin die Stimme aus dem Kissen
Ich hab euch etwas mitgebracht
Ein heller Schein am Firmament
Mein Herz brennt
Sie kommen zu euch in der Nacht
Und stehlen eure kleinen heissen Tranen
Sie warten bis der Mond erwacht
Und drucken sie in meine kalten Venen
Nun liebe Kinder gebt fein acht
Ich bin die Stimme aus dem Kissen
Ich singe bis der Tag erwacht
Ein heller Schein am Firmament
Mein Herz brennt

 

 

Заказать музыку Rammstein на аудио-дисках и mp3 вы можете в нашем Магазине

 
Rammstein - информация
Rammstein
 
шапка с помпоном
    Сайт группы Rammstein 2003-2013
Рейтинг@Mail.ru