Группа Rammstein - главная
Rammstein  навигация
Rammstein
     Новости
     О группе
     Дискография, mp3
     Чтиво
     Концерты
     Скачать клипы
     Фотографии
     Wallpapers

     Магазин
     Рассылка
     Разное
     Фанатам
     Ссылки
 
Rammstein - реклама
Rammstein
QLE.RU/100x100

Tier

* = PM note it is over

Riff 1
E---|-------------------------------------------------------------------
B---|-------------------------------------------------------------------
G---|------------------------8--7--5--/--7------------------------8-----
D---|------------------------8--7--5--/--7------------------------8-----
A---|--3h5--x--x--3h5--x--x--6--5--3--/--5--3h5--x--x--3h5--x--x--6-----
D---|-------------------------------------------------------------------

Rif* 2 * * * * * *
E----------------------|------------------------------------------------
B----------------------|------------------------------------------------
G---10--8--\--7--------|------------------------------------------------
D---10--8--\--7--------|------------------------------------------------
A---8---6--\--5--x--x--|-h5h-5-----5-h5h-5-----5--5h8--8--8--5h8--8-----
D----------------------|--5--5-----5--5--5-----5--5-8--8--8--5-8--8-----

* * * * * * * * *
E-----------------------------------------------------------------|-----
B-----------------------------------------------------------------|-----
G-----------------------------------------------------------------|-----
D-----------------------------------------------------------------|-----
A---8--8h10--10--10--8h10--10--10--0h3--3--3-----------0h3--3--3--|-----
D---8--8-10--10--10--8-10--10--10--0-3--3--3-----------0-3--3--3--|-----

Fill * * Fill 2 Acoustic Chords
E-----------------|-----5--1--3--|--------------------------------------
B-----------------|--3-----------|--------------------------------------
G-----------------|--------------|--------------------------------------
D-----------------|--------------|--------------------------------------
A---3h5--5-----5--|--------------|--------------------------------------
D---3-5--5-----5--|--------------|--------------------------------------

G A# C D
E---------------5--1-----3--|-------------------------------------------
B---------------5--3--1--2--|-------------------------------------------
G---------------0--3--0--3--|-------------------------------------------
D---------------0--3--2--0--|-------------------------------------------
A---------------5--1--3--0--|-------------------------------------------
D---------------5-----------|-------------------------------------------

Song Progression:
Acoustic Intro: G A# C D G A# C
Riff 1 x2
Verse 1
Riff 1 x2
Verse 2
Riff 1 x2
Pre Chorus: Riff 1 x2
Chorus: Riff 2
Riff 1 x2
Verse 3 W/Fill 1
Riff 1 x2
Pre Chorus Riff 1 x2
Chorus: Riff 2
KeyBoard Interlude: Fill 2 (Played By Keyboard
Transcribed for guitar)
Pre Chorus: Riff 1 x8
Acoustic Outro: G A# C D G A# C


== TABLATURE EXPLANATION ==


---------- ---------- ----t---
----5h8--- Hammeron ----(8)--- Ghost ----6--- Tap
---------- ---------- Note --------
----5p8--- Pulloff ---------- --------

---------- ---------- -----p--
----5/8--- Slide Up -----x---- Dead -----7-- Pop
---------- ---------- Note --s-----
----5\8--- Slide Down ---------- --5----- Slap

---------- ||------|| Repeat --------
----5~~~-- Vibrato ||*----*|| ---5^--- Bend
---------- ||*----*|| --------
---------- ||------|| --------

---------- ---------- --------
-4:------- Time ---------- --------
-4:------- Signature ---------- --------
---------- ---------- --------

Rhythm:
w = whole note W = dotted whole
h = half note H = dotted half
q = quarter note Q = dotted quarter
e = eighth note E = dotted eighth
s = sixteenth note S = dotted sixteenth
t = 32nd note T = dotted 32nd
x = 64th note X = dotted 64th
^ = triplet

 

 

 

Заказать музыку Rammstein на аудио-дисках и mp3 вы можете в нашем Магазине

 
Rammstein - информация
Rammstein
 
www.z-kids.ru
    Сайт группы Rammstein 2003-2013
Рейтинг@Mail.ru