Группа Rammstein - главная
Rammstein  навигация
Rammstein
     Новости
     О группе
     Дискография, mp3
     Чтиво
     Концерты
     Скачать клипы
     Фотографии
     Wallpapers

     Магазин
     Рассылка
     Разное
     Фанатам
     Ссылки
 
Rammstein - реклама
Rammstein
QLE.RU/100x100

Weisses Fleisch

Riff 1 4x Riff 2 * Riff 3
E---||-------------------||------|--------------------|-----------------
B---||-------------------||---^--|--------------------|-----------------
G---||*-----------------*||--4---|--------------------|-----------------
D---||*-----------------*||------|--1--6--5--4-----5--|--1--6--5--4-----
A---||---------3--/--4---||------|--1--6--5--4--3--5--|--1--6--5--4-----
D---||---0--0--3--/--4---||------|--1--6--5--4--3--5--|--1--6--5--4-----

* Solo Rhythm
E---|--------------------------------------------|----------------------
B---|--------------------------------------------|----------------------
G---|--------------------------------------------|----------------------
D---|--------------------------------------------|----------------------
A---|--3-----------------------------------------|----------------------
D---|--3-----------------------------------------|----------------------

Song Progression:
Synth. Opening
Drums
Riff 1 x2
Verse 1 (Riff 1 is played in between the Lyrics on all verses in
intervals of 2. Except for the 4th interval of verse 1 which is 3)
Chorus Riff 2 x2
Riff 1 x2
Verse 2: see verse 1
Chorus Riff 2 x2
solo (played over solo rhythm)
Verse 3: See verse 2
Chorus: Riff 2 x3
End on Riff 3 + solo rhythm

== TABLATURE EXPLANATION ==


---------- ---------- ----t---
----5h8--- Hammeron ----(8)--- Ghost ----6--- Tap
---------- ---------- Note --------
----5p8--- Pulloff ---------- --------

---------- ---------- -----p--
----5/8--- Slide Up -----x---- Dead -----7-- Pop
---------- ---------- Note --s-----
----5\8--- Slide Down ---------- --5----- Slap

---------- ||------|| Repeat --------
----5~~~-- Vibrato ||*----*|| ---5^--- Bend
---------- ||*----*|| --------
---------- ||------|| --------

---------- ---------- --------
-4:------- Time ---------- --------
-4:------- Signature ---------- --------
---------- ---------- --------

Rhythm:
w = whole note W = dotted whole
h = half note H = dotted half

 

Заказать музыку Rammstein на аудио-дисках и mp3 вы можете в нашем Магазине

 
Rammstein - информация
Rammstein
 
цены на пигменты для бетона: купить пигменты для бетона.
    Сайт группы Rammstein 2003-2013
Рейтинг@Mail.ru